Se ha producido un error en este gadget.

martes, 13 de enero de 2009

posicion de los dedos en acordes en sus posiciones menores

bueno aqui teneis los acordes en su forma menor:

Acorde: cm (do menor)

e -----x------------------------
B-------x----------------------
G---------x--------------------
D---------x--------------------
A-----x------------------------
E------------------------------
--1- 2- 3--4-5--6-7--8-9-10-11-12-13-14

Acorde: dm (re menor)

e -x----------------------------
B -- ---x------------------------
G ---x--------------------------
D ------------------------------
A ------------------------------
E ------------------------------
---1- 2- 3--4-5--6-7--8-9-10-11-12-13-14

Acorde: Em (mi menor)

e ------------------------------
B ------------------------------
G ------------------------------
D ---x--------------------------
A ---x--------------------------
E ------------------------------
---1- 2- 3--4-5--6-7--8-9-10-11-12-13-14

Acorde: Gm (sol menor)

e -----x------------------------
B -----x------------------------
G -----x------------------------
D ---------x--------------------
A ---------x--------------------
E -----x------------------------
---1- 2- 3--4-5--6-7--8-9-10-11-12-13--14

Acorde: Fm (fa menor)

e -x----------------------------
B -x----------------------------
G -x----------------------------
D -----x------------------------
A -----x------------------------
E -x----------------------------
---1- 2- 3--4-5--6-7--8-9-10-11-12-13--14

Acorde: Am (la menor)

este junto con los acordes mayores son los mas utilizados

e ------------------------------
B -x----------------------------
G ---x--------------------------
D ---x--------------------------
A ------------------------------
E ------------------------------
---1- 2- 3--4-5--6-7--8-9-10-11-12-13--14

Acorde: Bm ( si menor)

e ---x--------------------------
B -----x------------------------
G -------x----------------------
D -------x----------------------
A ---x--------------------------
E ------------------------------
---1- 2- 3--4-5--6-7--8-9-10-11-12-13--14

bueno estos son los acordes en su forma menor mas comunes

No hay comentarios: