Se ha producido un error en este gadget.

jueves, 19 de marzo de 2009

tutorial paco de lucia ntre dos aguas

bueno tema bastante complicado pero muy bueno echarle paciencia os pongo varios vídeos explicativos y tablatura para que veáis donde están las notas
parte 1 de explicación

parte 2i3 explicación


otro ejemplo de como tocarla




y la talatura
E-------------------------------------------------------
B-------------------------------------------------------
G*------------------------------------------------------
D*------------------------------------------------------
A-------------------------------------------------------
E-------------------------------------------------------



---------------------0------------------------------------2----------------
---------------------1------------------------------------3----------------
------------------*--0------------------------------------2----------------
------------------*--------------------------------------------------------
---------------------0------------------------------------2----------------
---------------------------------------------------------------------------



--------------------0------------------------------------2----------------
--------------------1------------------------------------3----------------
--------------------0------------------------------------2----------------
--------------------------------------------------------------------------
--------------------0------------------------------------2----------------
--------------------------------------------------------------------------



-------------------3----3--2--2--0--0-------------------------0--2--3--
---------------------------------------3----3------1----1--3-----------
-----------------------------------------------------------------------
-----------------------------------------------------------------------
--2-----------2--------------------------------------------------------
---------2---------0---------------------------------------------------



--5--3--3--2--2--2--2--2------0------------0--2----3--2--2--0--0-------0--
---------------------------------3------3-------------------------3-------
--------------------------------------------------------------------------
--------------------------------------------------------------------------
--------------------------------------------------------------------------
--------------------------------------------------------------------------



----------------------2----0-----------2------------------3--
----3--1----------------------4------------------------------
-------------------------------------------------------------
-------------------------------------------------------------
-------------------------------------------------------------
-------------------------------------------------------------



--3--2--2--0--0-------------------------0--2--3----5--------3--2--0-----
-----------------3----3------1----1--3-------------------------------3--
------------------------------------------------------------------------
------------------------------------------------------------------------
------------------------------------------------------------------------
------------------------------------------------------------------------



------------------0--2----3--------2--0------------------------------0--
----3----0--1--3-------------------------3--1----1--1-------0--1--3-----
---------------------------------------------------------2--------------
------------------------------------------------------------------------
------------------------------------------------------------------------
------------------------------------------------------------------------



--2-0--------------------2--0-----0--2--3--5----3--2--0---------------
------4------------------------4-------------------------3--1------0--
----------------------------------------------------------------------
----------------------------------------------------------------------
----------------------------------------------------------------------
----------------------------------------------------------------------



-----------------------3----2--0--------------------
-----------------0--1-------------3--1--0-----------
--2--0-----0--2----------------------------2--0-----
--------4----------------------------------------4--
----------------------------------------------------
----------------------------------------------------



------------------------------------------0--------------------------------
--------0-----------0--1----3----1--0--1-----4------0--1--0-----0--1----0--
--0--2-----2--0--2-------------------------------------------3-------------
---------------------------------------------------------------------------
---------------------------------------------------------------------------
---------------------------------------------------------------------------



-----------------------------------3--3--3----3----2----5----3--7--
----0----0----0----0----0------------------------------------------
-------------------------------------------------------------------
-------------------------------------------------------------------
-------------------------------------------------------------------
-------------------------------------------------------------------



----5----8----7--10--8----7----5--3--2--3--2--0---------------0--2--3--
---------------------------------------------------------3-------------
-----------------------------------------------------------------------
-----------------------------------------------------------------------
-----------------------------------------------------------------------
-----------------------------------------------------------------------



--8----7--5--3--2--0-------------------------------------------------
----------------------3----1------------------0--1--4--1--0----0--1--
---------------------------------------------------------------------
---------------------------------------------------------------------
---------------------------------------------------------------------
---------------------------------------------------------------------



-----------------0--2--3------2----5----3--2--5------3--2--7--5--3--2--5--
--4--1--0--1--4-----------------------------------------------------------
--------------------------------------------------------------------------
--------------------------------------------------------------------------
--------------------------------------------------------------------------
--------------------------------------------------------------------------



--3----2--0---------------5--3--2--3--5--7--8----10----8--7--8--12--10----
-------------3------------------------------------------------------------
--------------------------------------------------------------------------
--------------------------------------------------------------------------
--------------------------------------------------------------------------
--------------------------------------------------------------------------



--8--7--8--7--6--7--8--7------7----7--------7--------------------
-----------------------------------------------------------------
-----------------------------------------------------------------
-----------------------------------------------------------------
-----------------------------------------------------------------
-----------------------------------------------------------------



--0--------------------0----------------------0----------------
--4--------------------4----------------------0----------------
--5--------------------5----0-----2--0--------2----------------
--7--------------------7-------4--------------4----2--0--------
---------------------------------------------------------------
---------------------------------------------------------------



--0----------0--------0-------------------------------------------
--0----------0--------1-------------------------------------------
--2----------2--------0-------------------------------------------
--4----2--0--4--2--0--2------0------------------------------------
--------------------------------3----2------3----1----------------
------------------------------------------------------------------



----------------------------------------------------------------0--3--
-------0--1-----0--1---------0--1-------0-----0----1------------------
---------------------------------------------------0------------------
---------------------------------------------------2------------------
--2----------2--------2------------2-------2-------2------------------
----------------------------------------------------------------------



--7------5--------------------------5--3--2--------------------
------------------------------0--3-----------------------------
---------------------------------------------------------------
---------------------------4-----------------------------------
------------------------2--------------------------------------
---------------------------------------------------------------



----------------3--2--0-----------------------------------------------
-------------1-------------------------------1-0---1-0--------1-0---1-
----------0--------------------------------------3----------------3---
-------2--------------------------------------------------------------
----0-----------------------------------------------------------------
----------------------------------------------------------------------



-----------------3----3--2--2--0--0--------------------------------0--
--0----------------------------------3----3------1-----------1--3-----
----------------------------------------------------------0-----------
-------------------------------------------------------2--------------
----------------------------------------------------0-----------------
----------------------------------------------------------------------



--2--3--5--3--3--2--2--0----0------------0----2----3--2--2--0--0----------
-------------------------------3--3-------------------------------3----3--
--------------------------------------------------------------------------
--------------------------------------------------------------------------
--------------------------------------------------------------------------
--------------------------------------------------------------------------



----------------------0----2----0-----0-----0---------------------------
----1-----------1--3---------------4-----1-----4------1--0-----0--------
-------------0----------------------------------------------3-----------
----------2-------------------------------------------------------------
-------0----------------------------------------------------------------
------------------------------------------------------------------------



--7----5--3--2--0---------------------0----2--3----8----7--12--10------8--
-------------------3--1------0--1--3--------------------------------------
--------------------------------------------------------------------------
--------------------------------------------------------------------------
--------------------------------------------------------------------------
--------------------------------------------------------------------------



----14----14--14--15--15--17----17----15--14--15--14--12--14--
--------------------------------------------------------------
--------------------------------------------------------------
--------------------------------------------------------------
--------------------------------------------------------------
--------------------------------------------------------------



----12--11--12----14--15--15----15----------15--15----
------------------------------------------------------
------------------------------------------------------
------------------------------------------------------
------------------------------------------------------
------------------------------------------------------



--------14--14--12--10------12----10--------8--------7----8--10--12--14--15--
-----------------------------------------------------------------------------
-----------------------------------------------------------------------------
-----------------------------------------------------------------------------
-----------------------------------------------------------------------------
-----------------------------------------------------------------------------



--17--15--15--14--14--12--12----------------10--12--14--
--------------------------------------------------------
--------------------------------------------------------
--------------------------------------------------------
--------------------------------------------------------
--------------------------------------------------------



--15--14--14--12--12----12--10------8-------------------------------------
--------------------------------------------------------------------------
--------------------------------------------------------------------------
---------------------------------------------------------0------------2-0-
-------------------------------------------------------7---4--------------
--------------------------------------------------------------------------



-----------------------3------2--0------------------------0--2--3--
------------------------------------3----1----------1--3-----------
-------------------------------------------------------------------
-------------------------------------------------------------------
--3----2--------2--------------------------------------------------
-------------------------------------------------------------------



--5--3--3--2--2--0---------------------------0----3--2--2--0--0----------
----------------------3----3--------0--1--3----------------------3----1--
-------------------------------------------------------------------------
-------------------------------------------------------------------------
-------------------------------------------------------------------------
-------------------------------------------------------------------------



------------------------2--0--0--------------------------------
-------------0--1--3-------------4--4--------------------------
----------2----------------------------------------------------
---------------------------------------------------------------
---------------------------------------------------------------
---------------------------------------------------------------



---------------------------------------0---------0-------0--
--0------------------------------------0------0--0----0--0--
--2------------------------------------0---------0-------0--
--1---------------------------------------------------------
--2---------------------------------------------------------
------------------------------------------------------------



----------0--------0-----------------------------------------------------
----0-----0--0-----0------3----3-----3--3-----3------3-----3--3-----3----
-------0--0-----0--0------2-------2--2-----2--2---------2--2-----2--2----
--------------------------4----------4--------4------------4--------4----
-------------------------------------------------------------------------
-------------------------------------------------------------------------



-------------------------------------------------------------------------
--1---------1--1-----1------1-----1--1-----1------0----0--------0--------
--0----0----0-----0--0---------0--0-----0--0-----------------4--------4--
--2---------2--------2------------2--------2------4-------4--4-----4--4--
--------------------------------------------------6----------6--------6--
-------------------------------------------------------------------------



-----------------------0---------------0----------0-------0-----
---------------2--4-------------4--------------------4-------4--
------------4---------------------------------------------------
----------------------------------------------------------------
----------------------------------------------------------------
----------------------------------------------------------------



----------------------------------------------------------------
--3--------2------3----------3--2----3--2----1--------0----1----
----------------------------------------------------------------
----------------------------------------------------------------
----------------------------------------------------------------
----------------------------------------------------------------



---------------------------------------------------------------
------------------1--0----0---------0--------------------------
-------0--2--3-------------------------------------------------
----4----------------------------4-----------------------------
---------------------------------------------------------------
---------------------------------------------------------------



-----3--2--3-----------------0--2--3--2--5--3------2--0-------------
--1------------------------------------------------------3----------
--------------------------4-----------------------------------------
--------------------------------------------------------------------
--------------------------------------------------------------------
--------------------------------------------------------------------



-------------0--2--3--2------0--------------------------------0--3--2--
----0--1--3---------------------3--1-----------------0--1--3-----------
--------------------------------------------------2--------------------
-----------------------------------------------------------------------
-----------------------------------------------------------------------
-----------------------------------------------------------------------



----0-------------------------0-2-3-5-3-2-0---0-2-3-
-------4----------------0-2-4---------------4-------
----------------------------------------------------
----------------------------------------------------
----------------------------------------------------
----------------------------------------------------



--0-----3--2--5--3--7--5----8--7--10--12------------------
-----0------------------------------------12--10----------
--------------------------------------------------12--11--
----------------------------------------------------------
----------------------------------------------------------
----------------------------------------------------------



---------------------------10----8--7--5--3--2--3------2--0--2--3--8------
----------------5--7--8---------------------------------------------------
----9--7--6--7------------------------------------------------------------
--------------------------------------------------------------------------
--------------------------------------------------------------------------
--------------------------------------------------------------------------



----7----5--3--2--3--5------3--2----------------------0-2-3-5-3-2-0---0-3-2-
------------------------------------------------0-2-4---------------4-------
----------------------------------------------------------------------------
----------------------------------------------------------------------------
----------------------------------------------------------------------------
----------------------------------------------------------------------------



--0---0-2-3-5-3-2-0-------------------------------------------------
----0---------------3-1-0-1-3-1-0---------0-------------------------
------------------------------------2-0-2---2-0---------------------
------------------------------------------------4-2-0---0-2-0-------
------------------------------------------------------3-------3-2-3-
--------------------------------------------------------------------



----------------------------------------------------------------------
--------------3--1----0-----------------------------------------------
-----------2-----------------2----0-----------------------------------
--0--0--4------------------------------4----2------0------------------
------------------------------------------------------3--2--1------1--
----------------------------------------------------------------------



----------------------------------------------------------------
-------------------------0-------0------0------0----0--0--------
--0-------------------------------------------------------------
------------------------------4---------------------------------
---------1--------2---------------------------------------------
----------------------------------------------------------------



----------------2--3--5----6--7--12--15--12--------------
----0--5--4--5-------------------------------12----------
-------------------------------------------------13--12--
---------------------------------------------------------
---------------------------------------------------------
---------------------------------------------------------



---------------------------------5--10--8--7----0------------------
------------------------------7-----------------1------------------
----11----9--7----------------------------------0------------------
-------------------------------------------------------------------
-------------------------------------------------------3------2----
-------------------------------------------------------------------



---------0--3--8--7--0------------------------------------------
--------------------------4-------------------------------------
--------------------------4-------------------------------------
--------------------------4-------------------------------------
--1------------------------------2------1------2----------------
----------------------------------------------------------------



-------------------------------------------------------------------
--0--1--0-----0----------------------0--1--0-----------------------
-----------3-------------------0--2---------------2--1--2----------
-------------------------------------------------------------------
-------------------------------------------------------------------
-------------------------------------------------------------------



-------------------------------------------------------------------
-----------------0-------------------------------------------------
-----------0--2-----2------0-----0------------------------0--2--0--
--------4---------------------4---------------------2--4-----------
-------------------------------------------------------------------
-------------------------------------------------------------------



------------------------------------------------------------------------
-------------------------------0-----0-----0----1--0-----1--0-----1--0--
-------------------------4--3-----3-----3-------------3--------3--------
----4--3--4-------------------------------------------------------------
------------------------------------------------------------------------
------------------------------------------------------------------------



---------------------------------------------------
-----1--0-----1--0---------------------------0--1--
--3--------3--------3--2------1--2-----0--2--------
------------------------------------4--------------
---------------------------------------------------
---------------------------------------------------



-----0--2--3--10--8--7--8------7--5--7----5--4--5------3--2--3----2--0--2--
--3------------------------------------------------------------------------
---------------------------------------------------------------------------
---------------------------------------------------------------------------
---------------------------------------------------------------------------
---------------------------------------------------------------------------



----0-----0-----------------------------------------------------------
-------4-------3--2--3------1--0--1----0---------0--1--0-----0--------
------------------------------------------3---------------1-----------
----------------------------------------------------------------------
----------------------------------------------------------------------
----------------------------------------------------------------------



--------------------------------------------------------------------
--------------0--1--0-----------------------------------------0-----
--------0--2---------------2--1--2--2-----------------0----2-----2--
-------------------------------------------------4------------------
--------------------------------------------------------------------
--------------------------------------------------------------------



-----------------------------------------------------------------
-----------------------------------------------------------------
----0-----0------------------------0--2--0-----------------------
-------4---------------------2--4---------------4--3--4----------
-----------------------------------------------------------------
-----------------------------------------------------------------



--------------------0---------0-------0------------0--------0----
--------------------0------0--0----0--0------0-----0--0-----0----
--------------------0---------0-------0---------0--0-----0--0----
-----------------------------------------------------------------
-----------------------------------------------------------------
-----------------------------------------------------------------



-------------------------------------------------------------------------
--3----3-----3--3-----3------3-----3--1-----3------1---------1--1-----1--
--2-------2--2-----2--2---------2--2-----2--2------2----0----0-----0--0--
--4----------4--------4------------4--------4------4---------2--------2--
-------------------------------------------------------------------------
-------------------------------------------------------------------------



----------------------------------------------------------------------
----1-----1--1-----1------0----0--------0-----------------------------
-------0--0-----0--0-----------------4--------4-----------------------
----------2--------2------4-------4--4-----4--4--------------------1--
--------------------------6----------6--------6--------------2--4-----
----------------------------------------------------------------------



---------------------------------------------------------------
---------------------------------------------------------------
---------------------------------------------------------------
--2--------1------2----------1------2--1----0---------------0--
-----------------------------------------------------4---------
---------------------------------------------------------------



-------------------------------------------------------------------
-------------------------------------------------------------------
-------------------------------------------------------------------
--------0-------0--------------------------------------------------
-----------4-------4----3--------2------3----3------------0--2--3--
----------------------------------------------------2--3-----------



-----------------------------------------0----------------
-----------------------------------------0----------------
-----------------------------------------0----------------
----------------------------------------------------------
--2---------------2---------------------------------------
-----------2----------------------------------------------



--------------------------------------------------------------------
--------------------------------------------------------------------
----------0--2--0---------------------------------------0-----------
----2--4-----------2--0------------------------0--2--4-----2--0-----




No hay comentarios: