Acceder

miércoles, 16 de septiembre de 2009

hotel california intro tutorial gratis guitarra





tablatura

SIm LA
------------------------------------------------------------------------
----------------2-3-5-7-7/8\7-5/7~~~~----------3-2---------------
---4-4h6p4p3-4----------------------------2-4------0-2-2h4-2----
--------------------------------------------------------------4\2-------
------------------------------------------------------------------5/7---
------------------------------------------------------------------------

REm
------0------0------0------0---7----10-------7-6-7-9-10-9-10-12/14-14 -----0------0------0------0---8--8--8------8---------------------------
----0------2------4------7---9-----9-----9-----------------------------
---2------4------5------9----------------------------------------------
-----------------------------------------------------------------------
-----------------------------------------------------------------------

SIm LA
-----2h3p2---2-2---2---------------------------------------------------
-----------5-----5---3------5p3-0------------------3p2---2--2--------- ---4--------------------------------2/4~~~-----2-4-----4------2--4-~~
------------------------------------------------------------------ ----
-----------------------------------------------------------------------
-----------------------------------------------------------------------

--------------------7--9-10-9-10------12\----------0--------0--------0--
--------5-8--7-8-7-------------------------------0--------0--------0----
----6-7----------------------------------------0--------2--------4------
--------------------------------------------2--------4--------5---------
------------------------------------------------------------------------
------------------------------------------------------------------------

----------0-7p0---10-12-10------------9-9h10p9\7\6----------
--------0------------------12----------------------8-7-8-7--
------7-----------------------------------------------------
----9-------------------------------------------------------
------------------------------------------------------------
------------------------------------------------------------

esta parte se puede hacer de dos maneras como ya digo en el video,o bien asi

----------------
---7------------
-9---9-7-6------
-----------9-8--
----------------
----------------

o asi, "mas facil" (es simplemente otra manera, ambas son válidas)

-0-2----------
-----3--2-----
----------4-3-
--------------
--------------
--------------